АлисА - Сумерки текст, аккорды

Скачать песню
АлисА - Сумерки (текст, аккорды)

Время проигрывания: 05:35
Дата добавления: 2018-09-11
Загрузок: 864
Голосов: 0

Другие песни исполнителя АлисА
864

Текст песни:

Музыка и слова - Константин Кинчев.

Вступление

e---------------
H-3---3-3---3-3- 4
G-2---2-2---2-2- / раза.
D--------------- /

e-5---5-5---5-5--5---5-5---5-5--8---8-8---8-8-8---8-8-8---8-8-
H-5---5-5---5-5--5---5-5---5-5--5---5-5---5-5-5---5-5-5---5-5-
G-5---5-5---5-5--5---5-5---5-5--5---5-5---5-5-5---5-5-5---5-5-
D-5---5-5---5-5--5---5-5---5-5--5---5-5---5-5-5---5-5-5---5-5-

e-1---1-1---1-1---3----1---1-1---3----1---1-1---1-1-1---1-1-1-
H-3---3-3---3-3---3----3---3-3---3----3---3-3---3-3-3---3-3-3-
G-2---2-2---2-2---2----2---2-2---2----2---2-2---2-2-2---2-2-2-
D-------------------------------------------------------------

Dm Gm
Думы мои - сумерки,
B C
Думы - пролет окна,
Душу мою мутную
Вылакали почти до дна.

Dm Gm
Пейте-гуляйте, вороны,
B C
Нынче ваш день.
Dm Gm
Нынче тело, да на все четыре стороны
Am
Отпускает тень.

B Dm
Вольному - воля,
B Dm
Спасенному - боль.
B Dm
Вольному - воля,
Am
А-а-а...

Вот он я, смотри Господи,
И ересь моя вся со мной.
Посреди грязи - алмазные россыпи.
Глазами в облака, да в трясину ногой.

Кровью запекаемся на золоте,
Ищем у воды прощенья небес.
А черти, знай, мутят воду в омуте
И, стало быть, ангелы где-то здесь.

Припев.

Но в комнатах воздух приторный,
То ли молимся, то ли блюем.
Купола в России кроют корытами,
Чтобы реже вспоминалось о Нем.

А мы все продираемся к радуге
Мертвыми лесами да хлябью болот.
По краям да по самым по окраинам.
И куда еще нас бес занесет?

Припев.

Но только цепи золотые уже порваны,
Радости тебе, солнце мое
Мы такие чистые да гордые,
Пели о душе, да все плевали в нее.

Но наши отряды, ух, Отборные.
И те, что нас любят, все смотрят нам в след.
Да только глядь на образа, а лики-то черные.
И обратной дороги нет

Припев.

Думы мои - сумерки,
Думы - пролет окна,
Душу мою мутную
Вылакали почти до дна.

Пейте-гуляйте, вороны,
Нынче наш день.
Нынче тело, да на все четыре стороны
Am Dm
Отпускает те-е-ень.

Кода

e-1---1-1-1---3----1---1-1---3----1---1-1---1-1-1-1--1-1-1-1-
H-3---3-3-3---3----3---3-3---3----3---3-3---3-3-3-3--3-3-3-3- 4
G-2---2-2-2---2----2---2-2---2----2---2-2---2-2-2-2--2-2-2-2- / раза.
D------------------------------------------------------------ /

Комментарий автора подбора к песне

1). Во вступлении возможна небольшая импровизация.

2). Кода играется с затуханием.

3). На некоторых выступлениях Кинчев играет эту песню в тональности Em.

Клип Алиса - Сумерки. Вольному - воля (Аккорды на гитаре Am)

Рекомендуем также



Комментарии (0)

Добавить комментарий

Каптча:

/.jpg